•  
     

[Pedido] Tomorrow Comes Today - Gorillaz

Nao achei video aulas dessa musica mas achei tablatura.

Código: Selecionar todos

Tom: F#
		

Tuning: Standard (E A D G B e)

intro
-|-------------------------------------------------------------|-
-|-------------------------------------------------------------|-
-|-------------------------------------------------------------|-
-|------------------------6-------------------------6---------|-
-|------------------------0h4-----------------------0h4-------|-
-|-------------------------------------------------------------|-

main riff (keyboard arranged for guitar)
-|-------------------------------------------------------------|-
-|-------------------------------------------------------------|-
-|-------------------------------------------------------------|-
-|-----------11-----------------6------------------------------|-
-|-------11------------------6---------------------------------|-
-|-9--9----------------4--4------------------------------------|-

verses (slide the pick up and down, rub the pick up against the strings, or 
just tap your pick on the top two strings to get the effect)
-|--x--x-xxx--x-x-xx--|-
-|--x--x-xxx--x-x-xx--|-
-|--------------------|-
-|--------------------|-
-|--------------------|-
-|--------------------|-

Aquele riffizinho no começo
e|---7---7---7--9--9------------------------------------
B|-9---9---9--------------------------------------------

E suas variações depois de "...tomorrow comes today"
e|----7---7---7h9---------------------------------------
B|--9---9---9-----9-------------------------------------

E depois...
e|------------------------------------------------------
B|--5-7-5-7-5-7-9-5-------5-7-5-7-5-7-5-----------------
G|--------------------------------------6---------------


Se nao souber ler tablatura assista esses videos :
Parte 1


Parte 2